Hard to Handle - Black Crowes

(/) Slide Up  (\) Slide Down  (h) Hammer On  (p) Pull Off  (b) Bend (r) Release (v) Vibrato


E|----------------------------------------------------------------------
B|--9b10----9b10----9b10----9b10r9p7-----7------------------------------
G|------------------------------------9-----9p7-----9-----7h8-----------
D|-----------------------------------------------9-----9-------9--9--9--
A|----------------------------------------------------------------------
E|----------------------------------------------------------------------



E|--------------------------------------------------------
B|--------------------------------------------------------
G|--------------------------------------------------------
D|------9--9--12p9------9--9----------9--12--11p9------9--
A|--11--------------11------------11---------------11-----
E|--------------------------------------------------------



E|---------------------------------
B|--9b10--9b10r9p7--10b12--10b12v--
G|---------------------------------
D|---------------------------------
A|---------------------------------
E|---------------------------------



E|-------------------------------
B|--12h15p12------14p12------12--
G|------------13---------13------
D|-------------------------------
A|-------------------------------
E|-------------------------------



E|---------17---------17---------17-----------17---------17----------------17b19--
B|--17b19------17b19------17b19--------17b19------17b19------17b19r17--15---------
G|--------------------------------------------------------------------------------
D|--------------------------------------------------------------------------------
A|--------------------------------------------------------------------------------
E|--------------------------------------------------------------------------------
http://www.guitartabcreator.com
Guitar Tab Creator is intended to store guitar tab created through the tool. It currently does not support in-line text editing. Any text you place in here will be lost. If you need to comment on your tab, please use the "Tab Notes" section located below.