brad paisley mud on tires capo 2

(/) Slide Up  (\) Slide Down  (h) Hammer On  (p) Pull Off  (b) Bend (r) Release (v) Vibrato


E|------------------------
B|-------------3----------
G|----------2----------2--
D|-----2h4--------2h4-----
A|--5---------------------
E|------------------------



E|---------------------------------------
B|------------5---------3--3-------------
G|--2h4r2--2------------------2----2--2--
D|--2------2------------------2h4--4-----
A|--4------4---------2-------------------
E|---------------------------------------



E|-----------------------------------------------------
B|-----------------------------------------------------
G|------------2--------------2--------2h4-----2--------
D|--4h5r4--4-----------5-----------5-------5--------5--
A|--2---------------5-----------5----------------------
E|--5------------3--------3----------------------3-----



E|----------------------
B|----------------3--2--
G|--------2----------2--
D|-----2-----2h4-----2--
A|----------------------
E|--5-------------------
http://www.guitartabcreator.com
Guitar Tab Creator is intended to store guitar tab created through the tool. It currently does not support in-line text editing. Any text you place in here will be lost. If you need to comment on your tab, please use the "Tab Notes" section located below.