Black Magic Woman by Santana (Solo 2)

(/) Slide Up  (\) Slide Down  (h) Hammer On  (p) Pull Off  (b) Bend (r) Release (v) Vibrato


E|--10---------10---------10-------------
B|------13b15------13b15------13b15--10--
G|---------------------------------------
D|---------------------------------------
A|---------------------------------------
E|---------------------------------------



E|--13p12p10-----------------------------
B|------------13b15--10------------------
G|-----------------------12b14r12--10\9--
D|---------------------------------------
A|---------------------------------------
E|---------------------------------------



E|----------------12--12h13p12p10---------------13b15--15b17--13--15b17--13--17b20--
B|--------10--13-------------------13b15r13b15--------------------------------------
G|--9/10----------------------------------------------------------------------------
D|----------------------------------------------------------------------------------
A|----------------------------------------------------------------------------------
E|----------------------------------------------------------------------------------



E|--12h13p12p10--12h13p12p10v---------10-------------------------------------
B|-----------------------------13b15------13b15--10-----------------10-------
G|---------------------------------------------------12b14--10------10-------
D|--------------------------------------------------------------12------12v--
A|---------------------------------------------------------------------------
E|---------------------------------------------------------------------------



E|--------------------------------------------------------------------
B|--10h13p10-------------------13b15--15b17--13b15--------------------
G|------------12b14b12b14--10-----------------------12b14b12b14r10\0--
D|--------------------------------------------------------------------
A|--------------------------------------------------------------------
E|--------------------------------------------------------------------



E|---------10-----------------------------
B|--13b15------13p10----------------------
G|--------------------12p10--12b14--10\9--
D|----------------------------------------
A|----------------------------------------
E|----------------------------------------



E|-------------------10-------------------10-----------------
B|--------10--13b15------13b15b13b15--10--13b15--------------
G|--9/10-----------------------------------------10--10v-----
D|-----------------------------------------------------------
A|-----------------------------------------------------------
E|-----------------------------------------------------------



E|----------10--12--13--13b15--15b17--17b20--20b21----------------10----------10-----
B|------11----------------------------------------------------13------10--13---------
G|--12----------------------------------------------12b14r12-------------------------
D|-----------------------------------------------------------------------------------
A|-----------------------------------------------------------------------------------
E|-----------------------------------------------------------------------------------



E|----------10--13p10-----
B|--10--13----------------
G|------------------------
D|------------------------
A|------------------------
E|------------------------



E|--13p10h13p10--------------------------------------
B|---------------13p10h13p10-------------------------
G|----------------------------12p10h12p10------------
D|-----------------------------------------12p10h12--
A|---------------------------------------------------
E|---------------------------------------------------
Guitar Tab Creator is intended to store guitar tab created through the tool. It currently does not support in-line text editing. Any text you place in here will be lost. If you need to comment on your tab, please use the "Tab Notes" section located below.