more of said tab

(/) Slide Up  (\) Slide Down  (h) Hammer On  (p) Pull Off  (b) Bend (r) Release (v) Vibrato
t: E E E E E E E E E E E E E E E E E E E E EE EE E EE EE E EE EE EE EE E E
E|--------------------------------------------------------------------------------------------------------
B|-----------------------------------------------------------------------10-------------------------------
G|--------------4-----------------4b5r4--0--------------------12--11---------11-----11--12--11------------
D|--------5--------2-----5------------------4--5--------9-------------9----------9--------------12--9v----
A|--3--3-----3--------3-----3--3------------------7--7-----7----------------------------------------------
E|--------------------------------------------------------------------------------------------------------


t: E E E E E E E E E E E E E E E E E E EE E EE EE E EE EE E
E|-------------------------------------------------------------------------------------
B|-------------------------------------------------------------------------------------
G|--------------4-----------------4--5--4------------------------12--11-----14--11-----
D|--------5--------2-----5-----------------5--4----------------------------------------
A|--3--3-----3--------3-----3--3-----------------5--------10---------------------------
E|--------------------------------------------------0--0------0----------0----------0--



E|--------------------------12--14--15--
B|--------------12--13--15--------------
G|--11--12--14--------------------------
D|--------------------------------------
A|--------------------------------------
E|--------------------------------------
http://www.guitartabcreator.com
Guitar Tab Creator is intended to store guitar tab created through the tool. It currently does not support in-line text editing. Any text you place in here will be lost. If you need to comment on your tab, please use the "Tab Notes" section located below.