Pain

(/) Slide Up  (\) Slide Down  (h) Hammer On  (p) Pull Off  (b) Bend (r) Release (v) Vibrato

Stave 1:

E|---------------------|-----------|---------------------|-----------|-------------|-
B|-2-------------------|-----------|-2-------------------|-----------|-------------|-
G|-2-------4-------4h5-|-7-------7-|-2-------4-------4h5-|-7-------7-|---5---4---5-|-
D|-2-------2-------2---|-5-------4-|-2-------2-------2---|-5-------4-|-2---2---2---|-
A|-0-0-0-0-0-0-0-0-0---|-0-0-0-0-0-|-0-0-0-0-0-0-0-0-0---|-0-0-0-0-0-|-------------|-
E|---------------------|-----------|---------------------|-----------|-------------|-

Stave 2:

E|---------------------|-----------|---------------------|-----------|-
B|-2-------------------|-----------|---------------------|-----------|-
G|-2-------4-------4h5-|-7-------7-|-5-------4-------4h5-|-5-------4-|-
D|-2-------2-------2---|-5-------4-|-3-3-3-3-3-3-3-3-3---|-5-5-5-5-5-|-
A|-0-0-0-0-0-0-0-0-0---|-0-0-0-0-0-|---------------------|-----------|-
E|---------------------|-----------|---------------------|-----------|-

Stave 3:

E|---------------|---------------|-
B|-2-------------|-2-------------|-
G|-2-------4-4-2-|-2-------4-5-7-|-
D|-2-------3-3-3-|-2-------3-3-5-|-
A|-0-0-0-0-------|-0-0-0-0-------|-
E|---------------|---------------|-

Stave 4:

E|---------------------|---------------|-
B|---------------------|---------------|-
G|---2-7-2-------------|-------------2-|-
D|-2-3-7-3-2-----5-5-5-|-------------2-|-
A|-2-3-5-3-2-5-3-5-5-5-|-----0h3p0---0-|-
E|-0-1---1-0-5-3-3-3-3-|-0-3-------3---|-

Stave 5:

E|-------|-------------------------------|-
B|-------|-------------------------------|-
G|---5-7-|-5-------7-8-10-10-10-10-10-10-|-
D|-8-5-7-|-5-5-7-8-7-8-10-10-10-10-10-10-|-
A|-8-3-5-|-3-5-7-8-5-6-8--8--8--8--8--8--|-
E|-6-----|---3-5-6-----------------------|-

http://www.guitartabcreator.com
Guitar Tab Creator is intended to store guitar tab created through the tool. It currently does not support in-line text editing. Any text you place in here will be lost. If you need to comment on your tab, please use the "Tab Notes" section located below.