Study in Em Fingerstyle

(/) Slide Up  (\) Slide Down  (h) Hammer On  (p) Pull Off  (b) Bend (r) Release (v) Vibrato

E|-----2--3--2--0--------------------0--5--7--
B|-----------------0--------3-----0-----------
G|-----------------------2--------------------
D|--------------------0-----------------------
A|--------------------------------------------
E|--0--------------------------0--------------



E|--5-----7--8--7--5--0-------------------------------------12--
B|--------------------------0-----0---------------------12------
G|--------------------------------------------------12----------
D|-----------------------------------1--------------------------
A|-----0-----------------------2--------2-----------------------
E|-----------------------0-----------------3--2--0--------------
http://www.guitartabcreator.com
Guitar Tab Creator is intended to store guitar tab created through the tool. It currently does not support in-line text editing. Any text you place in here will be lost. If you need to comment on your tab, please use the "Tab Notes" section located below.