House of the rising sun.

(/) Slide Up  (\) Slide Down  (h) Hammer On  (p) Pull Off  (b) Bend (r) Release (v) Vibrato

Stave 1:

E|--------------------------------------------------------
B|---------------------------------8--10--10--8-----------
G|--------5--7/9--7--5-----5--7/9----------------9--7--9--
D|--7--7----------------7---------------------------------
A|--------------------------------------------------------
E|--------------------------------------------------------

Stave 2:

E|---------8--10--8--10p8-----------------------------------------
B|--8--10------------------10--10--8------------------------------
G|------------------------------------9--7\5----------------------
D|--------------------------------------------7--7--5--2--5/7-----
A|----------------------------------------------------------------
E|----------------------------------------------------------------

http://www.guitartabcreator.com
Guitar Tab Creator is intended to store guitar tab created through the tool. It currently does not support in-line text editing. Any text you place in here will be lost. If you need to comment on your tab, please use the "Tab Notes" section located below.