Razor's Edge Fast Licks

(/) Slide Up  (\) Slide Down  (h) Hammer On  (p) Pull Off  (b) Bend (r) Release (v) Vibrato


E|------------------------------------------------------
B|--------------------------------------15--17--18--17--
G|--------------------------14--16--17------------------
D|--------------14--15--17------------------------------
A|--14--15--17------------------------------------------
E|------------------------------------------------------



E|----------------------------------------------
B|--------------------------------------16--18--
G|------------------------------17--18----------
D|----------------------15--18------------------
A|--15----------15--16--------------------------
E|------16--18----------------------------------



E|--------------------------------------------------13--15--16--
B|------------------------------------------15--16--------------
G|------------------------------13--15--17----------------------
D|------------------13--15--17----------------------------------
A|------13--15--17----------------------------------------------
E|--13----------------------------------------------------------



E|--------------------------------------16--18--19--
B|--------------------------16--18--20--------------
G|--------------15--17--18--------------------------
D|--15--17--18--------------------------------------
A|--------------------------------------------------
E|--------------------------------------------------



E|--------------------------------------------------------------16--18--19--21--22-
B|--------------------------------------------------16--17--19---------------------
G|--------------------------------------15--16--18---------------------------------
D|--------------13--14--16--14--16--18---------------------------------------------
A|--13--14--16---------------------------------------------------------------------
E|---------------------------------------------------------------------------------
http://www.guitartabcreator.com
Guitar Tab Creator is intended to store guitar tab created through the tool. It currently does not support in-line text editing. Any text you place in here will be lost. If you need to comment on your tab, please use the "Tab Notes" section located below.