turkish

(/) Slide Up  (\) Slide Down  (h) Hammer On  (p) Pull Off  (b) Bend (r) Release (v) Vibrato


E|---------------------------------------------------------------6---7-------------------------------
B|-------------------7-9-10-10-9-7---------------------7-9-10------------------------------7-9-10-10-
G|-9-7-6-------6-7-9---------------9-9-7-6-------6-7-9-------------------9-7-6-------6-7-9-----------
D|-------9-7-9-----------------------------9-7-9-------------------------------9-7-9-----------------
A|---------------------------------------------------------------------------------------------------
E|---------------------------------------------------------------------------------------------------



E|---------------------------------
B|-9-7-----------------------------
G|-----9-9-7-6---6-9---6---7-------
D|-------------9-----7---9---6-9-7-
A|---------------------------------
E|---------------------------------
http://www.guitartabcreator.com
Guitar Tab Creator is intended to store guitar tab created through the tool. It currently does not support in-line text editing. Any text you place in here will be lost. If you need to comment on your tab, please use the "Tab Notes" section located below.