Moonlight Sonata (In the description, actual tab stopped working)

(/) Slide Up  (\) Slide Down  (h) Hammer On  (p) Pull Off  (b) Bend (r) Release (v) Vibrato

E|-------------------------------------------------------------------------------------------------
B|-----3-----3-----3-----3-----3-----3-----3-----3-----3-----3-----5-----5-----3-----3-----2-----2-
G|---4-----4-----4-----4-----4-----4-----4-----4-----4-----4-----5-----5-----4-----4-----4-----4---
D|-4-----4-----4-----4-----4-----4-----4-----4-----5-----5-----5-----5-----4-----4-----4-----4-----
A|-------------------------------------------------------------------------------------------------
E|-------------------------------------------------------------------------------------------------



E|-------------------------------------------------------------------------------------------------
B|-------------------------------------------------------------------------------------------------
G|-------------------------2-----------------------------------------------------------------------
D|-4-----------------------2-----------------------------------------------------------------------
A|-2-------------------------------------------------5---------------------------------------------
E|---------------------------------------------------3---------------------------------------------
http://www.guitartabcreator.com
Guitar Tab Creator is intended to store guitar tab created through the tool. It currently does not support in-line text editing. Any text you place in here will be lost. If you need to comment on your tab, please use the "Tab Notes" section located below.