Minor triads to sweep

(/) Slide Up  (\) Slide Down  (h) Hammer On  (p) Pull Off  (b) Bend (r) Release (v) Vibrato


E|------------------------------------------------------------------
B|------------------------------------------------------------------
G|------------------------------------------------------------------
D|--------2--2----------------7--7------------------10--10----------
A|-----3--------3----------7--------7-----------12----------12------
E|--5--------------5----8--------------8----12------------------12--



E|----------------------------------------------------------------
B|----------------------------------------------------------------
G|--------2--2----------------5--5------------------9--9----------
D|-----2--------2----------7--------7-----------10--------10------
A|--3--------------3----7--------------7----12----------------12--
E|----------------------------------------------------------------



E|----------------------------------------------------------------
B|--------1--1----------------5--5-----------------10--10---------
G|-----2--------2----------5--------5-----------9----------9------
D|--2--------------2----7--------------7----10----------------10--
A|----------------------------------------------------------------
E|----------------------------------------------------------------



E|--------5--5-----------------8--8-------------------12--12----------
B|-----5--------5----------10--------10-----------13----------13------
G|--5--------------5----9----------------9----14------------------14--
D|--------------------------------------------------------------------
A|--------------------------------------------------------------------
E|--------------------------------------------------------------------



E|-----5--8--8p5-----------8--12--12p8------------12--17--17p12------
B|--5-------------5----10---------------10----13-----------------13--
G|-------------------------------------------------------------------
D|-------------------------------------------------------------------
A|-------------------------------------------------------------------
E|-------------------------------------------------------------------
http://www.guitartabcreator.com
Guitar Tab Creator is intended to store guitar tab created through the tool. It currently does not support in-line text editing. Any text you place in here will be lost. If you need to comment on your tab, please use the "Tab Notes" section located below.