Fur Elise

(/) Slide Up  (\) Slide Down  (h) Hammer On  (p) Pull Off  (b) Bend (r) Release (v) Vibrato


E|--12--11--12--11--12--------------------------------------------------0--12--11--12--11--12---------
B|----------------------12--15--13--10---------------------------------------------------------12-----
G|----------------------------------------------14--16------14--16--17--------------------------------
D|------------------------------------------14----------14--------------------------------------------
A|--------------------------------------15------------------------------------------------------------
E|----------------------------------------------------------------------------------------------------



E|--------------------------------------------------7--8--10--12--------13--12--10-------12--10-----
B|--15--13--10------------------------------------------------------10----------------8-------------
G|----------------------14--16------17--16--14------------------------------------------------------
D|------------------14----------14------------------------------------------------------------------
A|--------------15----------------------------------------------------------------------------------
E|--------------------------------------------------------------------------------------------------



E|--8-------10--8--7--
B|-------6------------
G|--------------------
D|--------------------
A|--------------------
E|--------------------
http://www.guitartabcreator.com
Guitar Tab Creator is intended to store guitar tab created through the tool. It currently does not support in-line text editing. Any text you place in here will be lost. If you need to comment on your tab, please use the "Tab Notes" section located below.