Eine Kleine

(/) Slide Up  (\) Slide Down  (h) Hammer On  (p) Pull Off  (b) Bend (r) Release (v) Vibrato


E|----------------------------------------------------------
B|----------------------------------------------------------
G|-------------------------------5-----5-----5--------------
D|--5-----5-----5-----5-------7-----7-----7-----7--4--7-----
A|-----5-----5-----5-----5/9-----------------------------5--
E|----------------------------------------------------------



E|-----------------------------------------------------------------------------------------
B|------------------------------------13-------------------------------------------13------
G|--12--12--16--14--12--14p12\11--14------11--14p12--12--16--14--12--14p12/11--14------11--
D|-----------------------------------------------------------------------------------------
A|-----------------------------------------------------------------------------------------
E|-----------------------------------------------------------------------------------------



E|---------------------------------------------------------------------------------------
B|---------------------------------------------------------15p13------13v--15v--/17v-----
G|--12--12--12p11------11--12--12--16--14--12--14--16--16---------16---------------------
D|-----------------14--------------------------------------------------------------------
A|---------------------------------------------------------------------------------------
E|---------------------------------------------------------------------------------------



E|-------------------------------------------------------------------
B|--15/13--13--13--13/12--12--12--12/10--10--10----------------------
G|-----------------------------------------------12--11------11--12--
D|-------------------------------------------------------14----------
A|-------------------------------------------------------------------
E|-------------------------------------------------------------------
http://www.guitartabcreator.com
Guitar Tab Creator is intended to store guitar tab created through the tool. It currently does not support in-line text editing. Any text you place in here will be lost. If you need to comment on your tab, please use the "Tab Notes" section located below.