test

(/) Slide Up  (\) Slide Down  (h) Hammer On  (p) Pull Off  (b) Bend (r) Release (v) Vibrato


E|-5---8--7-
B|-7-7-10-6-
G|-7-8-12-8-
D|--------8-
A|-----13-9-
E|-----14---



E|-6--9-14----
B|-11---14-12-
G|----9----12-
D|----9-15-17-
A|------14-12-
E|------------



E|-5-
B|-7-
G|-8-
D|---
A|---
E|---
http://www.guitartabcreator.com
Guitar Tab Creator is intended to store guitar tab created through the tool. It currently does not support in-line text editing. Any text you place in here will be lost. If you need to comment on your tab, please use the "Tab Notes" section located below.