Air Guitar - Correct Key (Main Guitar)

(/) Slide Up  (\) Slide Down  (h) Hammer On  (p) Pull Off  (b) Bend (r) Release (v) Vibrato

E|-----2--0--------------------|-----2--0------------------|---------------------------------
B|-----------0-----------------|-----------0---------------|---------------------------------
G|--------------------1--3-----|------------------1--3-----|-----------3h4p3-----------------
D|--4-----------------------4--|------------------------4--|-----1--4---------4--1--4--------
A|-----------------------------|--2------------------------|--2------------------------2-----
E|-----------------------------|---------------------------|---------------------------------



E|--------------------------|--------------------------------|------------------------|--
B|--------------------------|--------------------------------|------------------------|--
G|--1--------1--------------|--------------------------------|------------------------|--
D|-----2--------2--------4--|--1h2p1-----------1----------2--|----6--4----------------|--
A|--------2--------2--1-----|---------2-----2-----2----------|-------6----------------|--
E|--------------------------|------------4-----------4-------|-------7----------------|--

Stave 1:

E|-----------------------|------------------------------|--------------------------|--
B|-----------------------|------------------------------|-----4--2-----------------|--
G|--------------1--------|------------------------------|-----------------4--4--3--|--
D|--4--1-----4-----2-----|------------1--4--1--4-----1--|--2--------1--4-----------|--
A|--------2-----------2--|------2--1--------------2-----|--------------------------|--
E|-----------------------|------------------------------|--------------------------|--

http://www.guitartabcreator.com
Guitar Tab Creator is intended to store guitar tab created through the tool. It currently does not support in-line text editing. Any text you place in here will be lost. If you need to comment on your tab, please use the "Tab Notes" section located below.