Air Guitar - Correct Key (Accompaniment Guitar)

(/) Slide Up  (\) Slide Down  (h) Hammer On  (p) Pull Off  (b) Bend (r) Release (v) Vibrato

E|----------------2-------|---------------0--7--6-------|---------4------------|--
B|------2------------4----|------------4-----------7----|------7-----7--4------|--
G|---------3--------------|-----------------------------|----------------------|--
D|------------------------|-----------------------------|----------------------|--
A|------------------------|-----------------------------|----------------------|--
E|------------------------|-----------------------------|----------------------|--

Stave 1:

E|-----------------------------------------------------------------------------------------------
B|--4----2----0h2--0-----------------------------------------------------------------------------
G|--4----3---------------------------------------------------------------------------------------
D|-----------------------------------------------------------------------------------------------
A|-----------------------------------------------------------------------------------------------
E|-----------------------------------------------------------------------------------------------

http://www.guitartabcreator.com
Guitar Tab Creator is intended to store guitar tab created through the tool. It currently does not support in-line text editing. Any text you place in here will be lost. If you need to comment on your tab, please use the "Tab Notes" section located below.