cant get enough of u

(/) Slide Up  (\) Slide Down  (h) Hammer On  (p) Pull Off  (b) Bend (r) Release (v) Vibrato
E|-----------------7--0--4--------------------------4--3--4--------4--7--0--4-----------
B|--------4--5--5-----------2--1--2--2--3--4--5--5--5--4--5--4--5--5-----------2--1-----
G|--------4--4--6-----------2--1--2--2--3--4--4--4--4--3--4--4--4--6-----------2--1-----
D|--2--2--4--4--6-----------2--1--2--2--3--4--4--6-----------4--4--6-----------2--1-----
A|--2--2--------------------------------------------------------------------------------
E|--------------------------------------------------------------------------------------



E|-----------------4--
B|--2--3--3--4--5--5--
G|--2--2--4--4--4--6--
D|--2--2--4--4--4--6--
A|--------------------
E|--------------------
http://www.guitartabcreator.com
Guitar Tab Creator is intended to store guitar tab created through the tool. It currently does not support in-line text editing. Any text you place in here will be lost. If you need to comment on your tab, please use the "Tab Notes" section located below.