Dass du ihn nicht liebst Solo

(/) Slide Up  (\) Slide Down  (h) Hammer On  (p) Pull Off  (b) Bend (r) Release (v) Vibrato

E|--------------------------------------15-------|------------------------------------------
B|----------13--13--15--15--13--15--17------17v--|--17--15--13--12h13p12--10h12p10--8h10p9--
G|--12--12---------------------------------------|------------------------------------------
D|-----------------------------------------------|------------------------------------------
A|-----------------------------------------------|------------------------------------------
E|-----------------------------------------------|------------------------------------------



E|------------------10b11--8h10p8--------------|-------------------------------------------
B|-----------8--10-----------------10--8--10v--|--/12--10--12/13--12--13/15--13--15/17-----
G|--9--7--9------------------------------------|-------------------------------------------
D|---------------------------------------------|-------------------------------------------
A|---------------------------------------------|-------------------------------------------
E|---------------------------------------------|-------------------------------------------



E|--17--15---------------|------------------------------
B|----------17--15--17v--|--17--15--13--15--13--12p13v--
G|-----------------------|------------------------------
D|-----------------------|------------------------------
A|-----------------------|------------------------------
E|-----------------------|------------------------------
http://www.guitartabcreator.com
Guitar Tab Creator is intended to store guitar tab created through the tool. It currently does not support in-line text editing. Any text you place in here will be lost. If you need to comment on your tab, please use the "Tab Notes" section located below.