vdaka ježiš

(/) Slide Up  (\) Slide Down  (h) Hammer On  (p) Pull Off  (b) Bend (r) Release (v) Vibrato


E|--7--5-----------5--7--8--7--5--
B|--------8--5--8-----------------
G|--------------------------------
D|--------------------------------
A|--------------------------------
E|--------------------------------



E|---3---2---3---2---0---2---3---2---0-------3---2---3---2---0---3---5---7---7---
B|---------------------------------------3---------------------------------------
G|-------------------------------------------------------------------------------
D|-------------------------------------------------------------------------------
A|-------------------------------------------------------------------------------
E|-------------------------------------------------------------------------------
http://www.guitartabcreator.com
Guitar Tab Creator is intended to store guitar tab created through the tool. It currently does not support in-line text editing. Any text you place in here will be lost. If you need to comment on your tab, please use the "Tab Notes" section located below.