Pane vždy keď tvoju svätosť zriem

(/) Slide Up  (\) Slide Down  (h) Hammer On  (p) Pull Off  (b) Bend (r) Release (v) Vibrato

E|-----------------------------5-----------------------5-----
B|--5--6--8--8--8--5--8--5--8-----5--6--8--8--8--5--8--------
G|--------------------------------------------------------5--
D|-----------------------------------------------------------
A|-----------------------------------------------------------
E|-----------------------------------------------------------
pane vždy keď tvoju svätosť zriem...


E|-----------------------------5--5---------
B|--5--6--8--8--8--5--8--5--8--------6-5----
G|---------------------------------------7--
D|------------------------------------------
A|------------------------------------------
E|------------------------------------------
a keď okolo mňa veci všednú ty svietiš sám


E|-----5--7--8--7--7--8--10---------------------------------------------------
B|--8------------------------8--8-----8--10--5--6-----5--6--8-----------------
G|---------------------------------9---------------7-----------7--7--5--4--5--
D|----------------------------------------------------------------------------
A|----------------------------------------------------------------------------
E|----------------------------------------------------------------------------
život ti dám...
http://www.guitartabcreator.com
Guitar Tab Creator is intended to store guitar tab created through the tool. It currently does not support in-line text editing. Any text you place in here will be lost. If you need to comment on your tab, please use the "Tab Notes" section located below.