Otvor mi oči duch svätý

(/) Slide Up  (\) Slide Down  (h) Hammer On  (p) Pull Off  (b) Bend (r) Release (v) Vibrato


E|-----5--5--5-----5--5-----------5--5--5-----5--5-----------------------------------
B|--7-----------7--------7-----7-----------7-----------7--5-----5--------7--5-----5--------
G|-----------------------------------------------------------7-----7-----------7-----7--7--
D|--------------------------------------------------------------------------------
A|--------------------------------------------------------------------------------
E|-------------------------------------------------------------------------------- /*opakovanie
otvor me oči duch svätý...


E|--------5--5--5--5--7--7-----5--7--5--5--5--5--------------5--5--5-----5-----5--7--
B|-----7-----------------------------------------7--7--5--------------7-----7--------
G|--7--------------------------------------------------------------------------
D|-----------------------------------------------------------------------------
A|-----------------------------------------------------------------------------
E|-----------------------------------------------------------------------------
chcem vidieť teba vo mne rásť...


E|------5--7--5--5-----------7--5--5-----------------------------
B|-7-7--------------7--7--5-----------7--7--5----------7--5-----5--------
G|-----------------------------------------------------------7-----7--7--
D|--------------------------------------------------------------
A|--------------------------------------------------------------
E|--------------------------------------------------------------
si spievam svätý svätý svätý vidieť ťa túžim



http://www.guitartabcreator.com
Guitar Tab Creator is intended to store guitar tab created through the tool. It currently does not support in-line text editing. Any text you place in here will be lost. If you need to comment on your tab, please use the "Tab Notes" section located below.