Rap Beat 1

(/) Slide Up  (\) Slide Down  (h) Hammer On  (p) Pull Off  (b) Bend (r) Release (v) Vibrato


E|--------------7----------------------------------------7--------9-----------------------------------
B|-----7-----------------10--------10-----9-----7--------------------------9--8-----7--------7--------
G|--------------7--------6---------6------6--------------7--------9-----------------------------------
D|-----7----------------------------------------7--------------------------9--8-----7--------6--------
A|-----------7-----7--9------9--9------7--------------7-----7--9-----9--------------------7-----7-----
E|--7-----7----------------------------------7-----7--------------------9-----8--7-----7--------------



E|---------------9--------------------------------
B|-----10------------------10---------7-----------
G|-----9---------9-----------------------------9--
D|-------------------------10---------7--------8--
A|--9------9--------------------------------9-----
E|------------9-----9--10------10--7-----7--------
http://www.guitartabcreator.com
Guitar Tab Creator is intended to store guitar tab created through the tool. It currently does not support in-line text editing. Any text you place in here will be lost. If you need to comment on your tab, please use the "Tab Notes" section located below.