Part 1/ Part 2 Jazz

(/) Slide Up  (\) Slide Down  (h) Hammer On  (p) Pull Off  (b) Bend (r) Release (v) Vibrato


E|--------------7--10--------------7--------------------7--10--------------------
B|-----7--------7--10-----7--------7-----5-----7--------7--10-----7-----5-----2--
G|-----7--------7--10-----7--------7-----4-----7--------7--10-----7-----4--------
D|-----7------------------7--------6-----3-----7------------------7-----3-----2--
A|-----------7-----10-----------7--------------------7-----10--------------------
E|--7-----7------------7-----7--------3-----7-----7------------7-----3-----2-----



E|--------------------------------------------
B|-----2--------5-----7-----5-----5-----2-----
G|-----2--------4-----6-----4-----4-----------
D|--------------------4-----3-----3-----2-----
A|--2-----2--4-----5--------------------------
E|-----------------------3-----3-----2-----2--
http://www.guitartabcreator.com
Guitar Tab Creator is intended to store guitar tab created through the tool. It currently does not support in-line text editing. Any text you place in here will be lost. If you need to comment on your tab, please use the "Tab Notes" section located below.