Metal Intro

(/) Slide Up  (\) Slide Down  (h) Hammer On  (p) Pull Off  (b) Bend (r) Release (v) Vibrato


E|----------------------------------------------------------------------------------
B|---------0---------0---------0---------0---------0---------0---------0---------0--
G|------0---------0---------0---------0---------0---------0---------0---------0-----
D|--10--------10--------10--------10--------10--------10--------10--------10--------
A|----------------------------------------------------------------------------------
E|----------------------------------------------------------------------------------



E|--------------------------------------------------------------------------
B|--------0--------0--------0--------0--------0--------0--------0--------0--
G|-----0--------0--------0--------0--------0--------0--------0--------0-----
D|--------------------------------------------------------------------------
A|--7--------7--------7--------7--------7--------7--------7--------7--------
E|--------------------------------------------------------------------------



E|----------------------------------------------------------------------------------
B|---------0---------0---------0---------0---------0---------0---------0---------0--
G|------0---------0---------0---------0---------0---------0---------0---------0-----
D|--10--------10--------10--------10--------10--------10--------10--------10--------
A|----------------------------------------------------------------------------------
E|----------------------------------------------------------------------------------



E|--------------------------------------------------------------------------
B|--------0--------0--------0--------0--------0--------0--------0--------0--
G|-----0--------0--------0--------0--------0--------0--------0--------0-----
D|--------------------------------------------------------------------------
A|--7--------7--------7--------7--------7--------7--------7--------7--------
E|--------------------------------------------------------------------------



E|----------------------------------------------------------------------------------
B|---------0---------0---------0---------0---------0---------0---------0---------0--
G|------0---------0---------0---------0---------0---------0---------0---------0-----
D|--10--------10--------10--------10--------12--------12--------10--------10--------
A|----------------------------------------------------------------------------------
E|----------------------------------------------------------------------------------



E|----------------------------------------------------------------------------
B|--------0--------0--------0--------0--------0--------0---------0---------0--
G|-----0--------0--------0--------0--------0--------0---------0---------0-----
D|----------------------------------------------------------------------------
A|--7--------7--------7--------7--------9--------9--------10--------10--------
E|----------------------------------------------------------------------------



E|----------------------------------------------------------------------------------
B|---------0---------0---------0---------0---------0---------0---------0---------0--
G|------0---------0---------0---------0---------0---------0---------0---------0-----
D|--10--------10--------10--------10--------12--------12--------17--------17--------
A|----------------------------------------------------------------------------------
E|----------------------------------------------------------------------------------



E|--------------------------------------------------------------------------
B|--------0--------0--------0--------0--------0--------0--------0--------0--
G|-----0--------0--------0--------0--------0--------0--------0--------0-----
D|--------------------------------------------------------------------------
A|--7--------7--------7--------7--------7--------7--------7--------7--------
E|--------------------------------------------------------------------------



E|----------------------------------------------------------------------------------
B|---------0---------0---------0---------0---------0---------0---------0---------0--
G|------9---------9---------9---------9---------7---------7---------7---------7-----
D|--10--------10--------10--------10--------10--------10--------10--------10--------
A|----------------------------------------------------------------------------------
E|----------------------------------------------------------------------------------



E|------------------------------------------------------------------------------
B|---------0---------0---------0---------0--------0--------0--------0--------0--
G|------------------------------------------------------------------------------
D|-----10--------10--------10--------10--------9--------9--------9--------9-----
A|--7---------7---------7---------7---------7--------7--------7--------7--------
E|------------------------------------------------------------------------------



E|----------------------------------------------------------------------------------
B|---------0---------0---------0---------0---------0---------0---------0---------0--
G|------9---------9---------9---------9---------7---------7---------7---------7-----
D|--10--------10--------10--------10--------10--------10--------10--------10--------
A|----------------------------------------------------------------------------------
E|----------------------------------------------------------------------------------



E|------------------------------------------------------------------------------
B|---------0---------0---------0---------0--------0--------0--------0--------0--
G|------------------------------------------------------------------------------
D|-----10--------10--------10--------10--------9--------9--------9--------9-----
A|--7---------7---------7---------7---------7--------7--------7--------7--------
E|------------------------------------------------------------------------------



E|----------------------------------------------------------------------------------
B|---------0---------0---------0---------0---------0---------0---------0---------0--
G|------9---------9---------9---------9---------9---------9---------9---------9-----
D|--10--------10--------10--------10--------12--------12--------12--------12--------
A|----------------------------------------------------------------------------------
E|----------------------------------------------------------------------------------



E|------------------------------------------------------------------------------
B|---------0---------0---------0---------0--------0--------0--------0--------0--
G|------------------------------------------------------------------------------
D|-----10--------10--------10--------10--------7--------7--------9--------9-----
A|--7---------7---------7---------7---------7--------7--------7--------7--------
E|------------------------------------------------------------------------------



E|--------------------------------------------------------------------------------------
B|---------0---------0---------0---------0----------0----------0----------0----------0--
G|------9---------9---------9---------9---------10---------10---------10---------10-----
D|--10--------10--------10--------10--------12---------12---------12---------12---------
A|--------------------------------------------------------------------------------------
E|--------------------------------------------------------------------------------------



E|---------------------------------------------------------------------
B|---------0---------0---------0---------0--------0--------0--------0--
G|---------------------------------------------------------------------
D|-----10--------10--------10--------10--------9--------9--------9-----
A|--7---------7---------7---------7------------------7--------7--------
E|------------------------------------------0--------------------------



E|------------------------------------------------------------------------------
B|---------0---------0---------0---------0--------0--------0--------0--------0--
G|------------------------------------------------------------------------------
D|-----10--------10--------10--------10--------9--------9--------9--------9-----
A|------------7---------7---------7------------------7--------7--------7--------
E|--0---------------------------------------0-----------------------------------
http://www.guitartabcreator.com
Guitar Tab Creator is intended to store guitar tab created through the tool. It currently does not support in-line text editing. Any text you place in here will be lost. If you need to comment on your tab, please use the "Tab Notes" section located below.