Blue

(/) Slide Up  (\) Slide Down  (h) Hammer On  (p) Pull Off  (b) Bend (r) Release (v) Vibrato


E|-------------------------------------------
B|----------12----------------7--------------
G|--------------12--11-----------7--------9--
D|------12-----------------7-----------8-----
A|-------------------------------------------
E|--12------------------7-----------8--------



E|-------------------------------------------
B|----------12----------------5--------------
G|--------------12--11-----------5--------0--
D|------12-----------------5-----------4-----
A|----------------------------------5--------
E|--12------------------5--------------------



E|-------------------------------------------
B|----------12----------------7--------------
G|--------------12--11-----------7--------9--
D|------12-----------------7-----------8-----
A|-------------------------------------------
E|--12------------------7-----------8--------



E|----------------------------------11--12--
B|----------12----------------------11--12--
G|--------------12--11--11--12--14--11--12--
D|------12--------------------------9---10--
A|------------------------------------------
E|--12--------------------------------------



E|-----------------------
B|---------12-----7--10--
G|---------12-----7--9---
D|---------12-----7--8---
A|-----------------------
E|--10h12------7-----8---



E|--------------------------------------------
B|---------12--5--7---------------------------
G|---------12--5--7-------------12h14---------
D|---------12--5--7------12h14---------12h14--
A|-------------------14-----------------------
E|--10h12------5--7---------------------------



E|--------------------
B|------12-----7--10--
G|------12-----7--9---
D|------12-----7--8---
A|--------------------
E|--12------7-----8---



E|-------------11--12--
B|---------12--11--12--
G|---------12--11--12--
D|---------12--9---10--
A|---------------------
E|--10h12--------------
http://www.guitartabcreator.com
Guitar Tab Creator is intended to store guitar tab created through the tool. It currently does not support in-line text editing. Any text you place in here will be lost. If you need to comment on your tab, please use the "Tab Notes" section located below.