soaker test

(/) Slide Up  (\) Slide Down  (h) Hammer On  (p) Pull Off  (b) Bend (r) Release (v) Vibrato
E|--------------------------------------------------------------
B|--------------------------------------------------------------
G|--------------------------------------------------------------
D|------------------------12------------------12--11------------
A|--------------------12------------------12----------12--11\9--
E|--5/10----10----10------------10----10------------------------



E|-------------------------------------------
B|-------------------------------------------
G|-------------------------------------------
D|-------------7---------------7--6----------
A|----------7---------------7--------7--4/7--
E|--5----5----------5----5-------------------



E|-------------------------------------------------------------------------------------------
B|-------------------------------------------------------------------------------------------
G|-------------------------------------------------------------------------------------------
D|--------------------------------------12---------------------------------------------------
A|----------------------------------12-------------------------------------------------------
E|--10--10--10--10--10--10--10--10------------10--10--10--10--10--10----8----10--10--10--10--



E|------------------------------------
B|------------------------------------
G|------------------------------------
D|------------------12--11------------
A|--------------12----------12--11\9--
E|--10--10--10------------------------



E|--------------------------------------------------------------------------------------------
B|--------------------------------------------------------------------------------------------
G|--------------------------------------------------------------------------------------------
D|-----------------------------7--------------------------------------------------7--6--------
A|--------------------------7--------------------------------------------------7--------7--4--
E|--5--5--5--5--5--5--5--5----------5--5--5--5--5----3----5--5--5--5--5--5--5-----------------



E|---------------------------------------------------------------------------------------------
B|---------------------------------------------------------------------------------------------
G|---------------------------------------------------------------------------------------------
D|---------------------------------------------------------------------------------------------
A|---------------------------------------------------------------------------------------------
E|--5--5--5--5--5--5--5--5--5----7--7----9--9--9--9--9--9--9--9----10--10----7--7--7--7--7--7--



E|----------------------------------------------------------------------------------------
B|----------------------------------------------------------------------------------------
G|----------------------------------------------------------------------------------------
D|----------------------------------------------------------------------------------------
A|----------------------------------------------------------------------------------------
E|--7--7--7--7----9--9----12--12--12--12--12----14--14--14----12--12--12----10--10--------



E|----------------------------------------------------------------------------------------
B|----------------------------------------------------------------------------------------
G|-----------------------------6--5--3--1---------------4-----------------9--7--6---------
D|-------------7------------6------------------------4-----------------9-----------7/9\7--
A|----------7-------4----4-------------------2----2----------2/7----7---------------------
E|--5----5--------------------------------------------------------------------------------
http://www.guitartabcreator.com
Guitar Tab Creator is intended to store guitar tab created through the tool. It currently does not support in-line text editing. Any text you place in here will be lost. If you need to comment on your tab, please use the "Tab Notes" section located below.