Wait!

(/) Slide Up  (\) Slide Down  (h) Hammer On  (p) Pull Off  (b) Bend (r) Release (v) Vibrato


E|--------------------------------------------------------|--|--
B|--------------------------------------------------------|--|--
G|--------------------------------------------------------|--|--
D|--3--2--0--0--0--5--4--0--0--0--3--2--0--5--4--0--3--5--|--|--
A|--------------------------------------------------------|--|--
E|--------------------------------------------------------|--|--



E|-----------------------------------------------------|--|--
B|-----------------------------------------------------|--|--
G|-----------------------------------------------------|--|--
D|-----------------------------------------------------|--|--
A|--3--2--0--0--0--5--4--0--0--0--3--2--0--5--4--0--3--|--|--
E|--3--2--0--0--0--5--4--0--0--0--3--2--0--5--4--0--3--|--|--



E|-------------------------------------------------------------|--|--
B|-------------------------------------------------------------|--|--
G|-------------------------------------------------------------|--|--
D|------------------------------------------------------14/16--|--|--
A|--12/14-----------14/15-----------12/14-----14/15-----12-14--|--|--
E|--12-14--0--0--0--14-15--0--0--0--12-14--0--14-15--0---------|--|--



E|------------------------------------------------------------------------------------------
B|------------------------------------------------------------------------------------------
G|------------------------------------------------------------------------------------------
D|--0------------------------------------------------------0--------------------------------
A|--0--------8-----7-----5-----8--8--------8-----7-----10--0--------------7-----5-----8--8--
E|--0--0--0-----0-----0-----0--8--8--0--0-----0-----0------0--0--0--8--0-----0-----0--8--8--



E|--------------------------|--|--
B|--------------------------|--|--
G|--------------------------|--|--
D|--------------------------|--|--
A|--8--8--8--7--7--7--5--5--|--|--
E|--8--8--8--7--7--7--5--5--|--|--
http://www.guitartabcreator.com
Guitar Tab Creator is intended to store guitar tab created through the tool. It currently does not support in-line text editing. Any text you place in here will be lost. If you need to comment on your tab, please use the "Tab Notes" section located below.