Six

(/) Slide Up  (\) Slide Down  (h) Hammer On  (p) Pull Off  (b) Bend (r) Release (v) Vibrato
E|----------------------------------------------|---------------------------------------------------
B|----------------------------------------------|---------------------------------------------------
G|----------------------------------------------|---------------------------------------------------
D|----------------------------------------------|---------------------------------------------------
A|--8--------7--------8--------7-----8-----7/8--|--8--------7--------8--------7-----8--10--8--7--8--
E|-----0--0-----0--0-----0--0-----0-----0-------|-----0--0-----0--0-----0--0-----0------------------



E|----------------------------------------------------------------|-----------------------------------------------------------------|--
B|----------------------------------------------------------------|-----------------------------------------------------------------|--
G|----------------------------------------------------------------|-----------------------------------------------------------------|--
D|--------------------------------------------------------2-------|-----------------------------------------------------------------|--
A|-----------------------------------------------------3-----3/5--|-----------------------------------------------------------------|--
E|--0--0--0--0--0--3--0--0--0--0--0--5--0--0--0--0--0-------------|--0--0--0--0--0--3--0--0--0--0--0--5--0--0--0--0--0--8--0--8--7--|--



E|-----------------------------------------------------------------------------------------------------------------|--
B|-----------------------------------------------------------------------------------------------------------------|--
G|--------------------------------------------------------2--------------------------------------------------------|--
D|--------------------------------------------------5--3--2--5--7--------------------------------------0-----------|--
A|--0--0--0--0--3--0--0--0--0--------5--0--0--0--0--3--1--0--3--5--0--0--0--0--3--0--0--0--0--5--0--0-----8--8--7--|--
E|--0--0--0--0--3--0--0--0--0--------5--0--0--0--0-----------------0--0--0--0--3--0--0--0--0--5--0--0--0--0--8--7--|--
http://www.guitartabcreator.com
Guitar Tab Creator is intended to store guitar tab created through the tool. It currently does not support in-line text editing. Any text you place in here will be lost. If you need to comment on your tab, please use the "Tab Notes" section located below.