Oblivion

(/) Slide Up  (\) Slide Down  (h) Hammer On  (p) Pull Off  (b) Bend (r) Release (v) Vibrato
E|--------------------------------------|--|--
B|--------------------------------------|--|--
G|--------------------------------------|--|--
D|--------------------------------------|--|--
A|--------------------------------------|--|--
E|--2--0--0--0--0--0--0--2p0--2p0--2p0--|--|--



E|------------------------------------|--|--
B|------------------------------------|--|--
G|------------------------------------|--|--
D|--------------------0-----0---------|--|--
A|--2--0--0--0--0--2--0--2--0--2------|--|--
E|--2--0--0--0--0--2--0--2--0--2------|--|--



E|----------------------------------------|--|--
B|----------------------------------------|--|--
G|--7--7--7--7--7--7--7--7--10--10--10\9--|--|--
D|----------------------------------------|--|--
A|--5--5--5--5--5--5--5--5--8---8---8--7--|--|--
E|----------------------------------------|--|--



E|-------------------------|--|--------------------|--------------|--|--
B|-------------------------|--|--------------------|--------------|--|--
G|-------------------------|--|--------------------|--------------|--|--
D|-------------------------|--|--5--5--------------|--8--7--5--3--|--|--
A|--1--0--3--0--1--0--4\3--|--|--3--3--8--7--5--3--|--------------|--|--
E|--1--0--3--0--1--0--4-3--|--|--3--3--8--7--5--3--|--------------|--|--



E|----------------------|--|-----------------------|--|--
B|----------------------|--|--6--6--6--6--8--8--8--|--|--
G|----------------------|--|--5--5--5--5--7--7--7--|--|--
D|--0--0--0--0--5--5\4--|--|--3--3--3--3--5--5--5--|--|--
A|--0--0--0--0--3--3-2--|--|--3--3--3--3--5--5--5--|--|--
E|--0--0--0--0--3--3-2--|--|--3--3--3--3--5--5--5--|--|--
http://www.guitartabcreator.com
Guitar Tab Creator is intended to store guitar tab created through the tool. It currently does not support in-line text editing. Any text you place in here will be lost. If you need to comment on your tab, please use the "Tab Notes" section located below.