Devil Is My Shepard

(/) Slide Up  (\) Slide Down  (h) Hammer On  (p) Pull Off  (b) Bend (r) Release (v) Vibrato


E|-----------------------------------------------|--
B|-----------------------------------------------|--
G|-----------------------------------------------|--
D|-----------------------------------------------|--
A|--3/5--------3/5--------3/5--------6--5--6--5--|--
E|--3-5--0--0--3-5--0--0--3-5--0--0--6--5--6--5--|--



E|-----------------------------------------------|--
B|-----------------------------------------------|--
G|-----------------------------------------------|--
D|-----------------------------------------------|--
A|--3/5--------3/5--------6--5--6--8--6--5--3/5--|--
E|--3-5--0--0--3-5--0--0--6--5--6--8--6--5--3-5--|--



E|------------------------------------------------------------------
B|------------------------------------------------------------------
G|------------------------------------------------------------------
D|------------------------------------------------------------------
A|--12\0--------------------12\0--------5v--12\0--------------------
E|--12-0--0--0--0--0--0--0--12-0--0--0------12-0--0--0--0--0--0--0--



E|----------------------------------------------------------------------
B|----------------------------------------------------------------------
G|----------------------------------------------------------------------
D|----------------------------------------------------------------------
A|----------------------------------------------12\0--------------------
E|--7h10--7h10--6h9--6h9--7h10--7h10--6h9--6h9--12-0--0--0--0--0--0--0--



E|-----------------------------------------------------------------------|--|--
B|-----------------4-----------------------------------------------------|--|--
G|--------------4-----4--------------------------------------------------|--|--
D|-----------------------------------------------3--2--------------------|--|--
A|--12\0-----------------12\0--------------------------3--2--1-----------|--|--
E|--12-0--0--0-----------12-0--0--0--0--0--0--0-----------------3--2--1--|--|--
http://www.guitartabcreator.com
Guitar Tab Creator is intended to store guitar tab created through the tool. It currently does not support in-line text editing. Any text you place in here will be lost. If you need to comment on your tab, please use the "Tab Notes" section located below.