song 6

(/) Slide Up  (\) Slide Down  (h) Hammer On  (p) Pull Off  (b) Bend (r) Release (v) Vibrato


E|---------------------------------------------------------------------------------------|--
B|---------------------------------------------------------------------------------------|--
G|---------------------------------------------------------------------------------------|--
D|---------------------------------------------------------------------------------8--5--|--
A|--------3--------3--------3--5--3--------3--------3/5\3--------3--------3--------6--3--|--
E|--0--1-----0--1-----0--1-----------0--1-----0--1---------0--1-----0--1-----0--1--------|--



E|-----------------------------------------------------------------------------------------|--
B|-----------------------------------------------------------------------------------------|--
G|-----------------------------------------------------------------------------------------|--
D|---------------7--------5--------3--------2---------------7--------5--------8---------7--|--
A|--0------------8--------7--------5--------3------3--------8--------7--------10--------8--|--
E|--0------0--0-----0--0-----0--0-----0--0---------3--0--0-----0--0-----0--0------0--0-----|--



E|-----------------------------------------------------------------------------------------|--
B|-----------------------------------------------------------------------------------------|--
G|--7----------------------------------------------10--------------------------------------|--
D|-----------------------------------------------------------------------------------------|--
A|--5----------------------------------------------8---------------------------------------|--
E|-----------------------------------------------------------------------------------------|--



E|--------------------------------------------------------------|--
B|--------------------------------------------------------------|--
G|--------------------------------------------------------------|--
D|--------------------------------------------------------------|--
A|--8--------10--------12----10----8----8----------5------------|--
E|--8--------10--------12----10----8----8----------5------------|--



E|------------------------------------------------------|--
B|------------------------------------------------------|--
G|-------------------12--10\9-10--9--10--9--7--9--7--5--|--
D|------------------------------------------------------|--
A|--8--------10------10--8--7/8---7--8---7--5--7--5--3--|--
E|--8--------10-----------------------------------------|--



E|------------------------------------------|-----
B|------------------------------------------|-----
G|------------------------------------------|-----
D|--7----------5----------8----------7------|-----
A|--8----------7----------5----------3------|-----
E|------------------------------------------|-----



E|---------------------------------------------|------------------------------------------|-
B|---------------------------------------------|------------------------------------------|-
G|---------------------------------------------|------------------------------------------|-
D|---------------------------------------------|------------------------------------------|-
A|-0-0-0--0-0-0---0-0-0---0-0-0---0-0-0--0-0-0-|-1-1-1--1-1-1---1-1-1---1-1-1--1-1-1--1-1-|-
E|-0-0-0--0-0-0---0-0-0---0-0-0---0-0-0--0-0-0-|-1-1-1--1-1-1---1-1-1---1-1-1--1-1-1--1-1-|-



E|--------------------------------------------------------|---
B|--------------------------------------------------------|---
G|--------------------------------------------------------|---
D|-7-----5-----8-----7---5-----7-----12-----8------14-----|---
A|-8-----7-----5-----3---3-----8-----13-----10-----15-----|---
E|--------------------------------------------------------|---



E|---------------------|-
B|---------------------|-
G|---------------------|-
D|-------------5-------|-
A|-0-----5-----3-----5-|-
E|-0-----5-----------5-|-



E|--------------------------
B|-7-8--11-10-8---5-6-------
G|--------------------------
D|---------------------9-10-
A|-5-5--8--8--8---3-3-------
E|---------------------5-5--
http://www.guitartabcreator.com
Guitar Tab Creator is intended to store guitar tab created through the tool. It currently does not support in-line text editing. Any text you place in here will be lost. If you need to comment on your tab, please use the "Tab Notes" section located below.