Song 5 (Rhythm)

(/) Slide Up  (\) Slide Down  (h) Hammer On  (p) Pull Off  (b) Bend (r) Release (v) Vibrato

Verse
E|----------------------------------------------------------------------------------------------|-
B|-1-1-1--1-1-1--1-1-1--1-1-1-3-3-3-3--3-3-3--3-3-3--3-3-3-1-1-1-1--1-1-1--1-1-1--1-1-1-3-3-3-3-|-
G|-2-2-2--2-2-2--2-2-2--2-2-2-2-2-2-2--2-2-2--2-2-2--2-2-2--------------------------------------|-
D|-2-2-2--2-2-2--2-2-2--2-2-2-2-2-2-2--2-2-2--2-2-2--2-2-2-2-2-2-2--2-2-2--2-2-2--2-2-2-2-2-2-2-|-
A|---------------------------------------------------------3-3-3-3--3-3-3--3-3-3--3-3-3-3-3-3-3-|-
E|----------------------------------------------------------------------------------------------|-



E|---------------------------------------------------------------------------------------------|-
B|-3-3-3--3-3-3--3-3-3--1-1-1--1-1-1--1-1-1--1-1-1-3-3-3-3--3-3-3--3-3-3--3-3-3----------------|-
G|----------------------0-0-0--0-0-0--0-0-0--0-0-0-0-0-0-0--0-0-0--0-0-0--0-0-0--2-2-2--2-2-2--|-
D|-2-2-2--2-2-2--2-2-2--0-0-0--0-0-0--0-0-0--0-0-0-0-0-0-0--0-0-0--0-0-0--0-0-0--3-3-3--3-3-3--|-
A|-3-3-3--3-3-3--3-3-3--2-2-2--2-2-2--2-2-2--2-2-2-2-2-2-2--2-2-2--2-2-2--2-2-2--3-3-3--3-3-3--|-
E|----------------------3-3-3--3-3-3--3-3-3--3-3-3-3-3-3-3--3-3-3--3-3-3--3-3-3--1-1-1--1-1-1--|-



E|-------------|-
B|-------------|-
G|-2-2-2-2-2/4-|-
D|-3-3-3-3-3-5-|-
A|-3-3-3-3-3-5-|-
E|-1-1-1-1-1-3-|-


Pre Chorus
E|------------------------------|------------------|-
B|------------------------------|------------------|-
G|-2---2---4--4-4--4-4-4-4--4-4-|--2---2---4-------|-
D|------------------------------|------------------|-
A|-3---3---5--5-5--5-5-5-5--5-5-|--3---3---5-------|-
E|-1---0---3--3-3--3-3-3-3--3-3-|--1---0---3-------|-


Chorus x1
E|-----------------------------------------------------------------------------------|-
B|-----------------------------------------------------------------------------------|-
G|---------7-7-7-7-7-5-5-5-5-5-5-5---------5-5-5-5-5-4-4-4-4-4-4-4---------2-2-2-2-2-|-
D|-----------------------------------------------------------------------------------|-
A|-7-7-7-7-7-7-7-7-7-7-7-7-7-7-7-7-5-5-5-5-5-5-5-5-5-5-5-5-5-5-5-5-3-3-3-3-3-3-3-3-3-|-
E|-5-5-5-5-5-5-5-5-5-5-5-5-5-5-5-5-3-3-3-3-3-3-3-3-3-3-3-3-3-3-3-3-1-1-1-1-1-1-1-1-1-|-


|Last Three Notes|
E|------------------------------------------------------------------|-
B|------------------------------------------------------------------|-
G|-----------------------5-5-5-5-5/7-7-4-4-4-4-4--2---2---4---------|-
D|-5-5-5-5-5-5-5----------------------------------------------------|-
A|-3-3-3-3-3-3-3-5-5-5-5-5-5-5-5-5-5-5-5-5-5-5-5--3---3---5---------|-
E|-1-1-1-1-1-1-1-3-3-3-3-3-3-3-3-3-3-3-3-3-3-3-3--1---0---3---------|-

Verse, Pre-Chorus, Chorus

Bridge(Each Note 8 Times)
E|--------------------------------------------------|-
B|--------------8--6--5--6--3--5--6--5--3--5--6--5--|-
G|--------------------------------------------------|-
D|-7--9--10--9--------------------------------------|-
A|-0--0--0---0--5--5--5--5--3--3--3--3--2--2--2--2--|-
E|--------------------------------------------------|-

Chorus x2 (no last three notes(Labeled Above))
Bridge (Continue as outro)




http://www.guitartabcreator.com
Guitar Tab Creator is intended to store guitar tab created through the tool. It currently does not support in-line text editing. Any text you place in here will be lost. If you need to comment on your tab, please use the "Tab Notes" section located below.