Song 4 (Rhythm)

(/) Slide Up  (\) Slide Down  (h) Hammer On  (p) Pull Off  (b) Bend (r) Release (v) Vibrato

Verse x2
E|-------------------------------------------------------------------------------------------------|
B|-------------------------------------------------------------------------------------------------|
G|-------------------------------------------------------------------------------------------------|
D|-------------------------------------------------------------------------------------------------|
A|-------------------------------------------------------------------------------------------------|
E|-7-4-4-7-4-4-7-4-7-4-4-7-4-4-7-4-7-3-3-7-3-3-7-3-7-3-3-7-3-3-7-3-7-0-0-7-0-0-7-0-7-0-0-7-0-0-7-0-|


Pre Chorus x2
E|---------------------------------|-------------------------------------------------------|-
B|---------------------------------|-------------------------------------------------------|-
G|---------------------------------|-------------------------------------------------------|-
D|---------------------------------|-------------------------------------------------------|-
A|---------------------------------|-4-----4-----4p0-4-----4---4-3-----3-----3p0-3-----3---|-
E|-0-1-1-0-1-1-0-1-0-1-1-0-1-1-0-1-|-4-4-4-4-4-4-4-0-4-4-4-4-4-4-3-3-3-3-3-3-3-0-3-3-3-3-3-|-



E|------------------------------------------------------------------------------|-
B|------------------------------------------------------------------------------|-
G|------------------------------------------------------------------------------|-
D|------------------------------------------------------------------------------|-
A|-0-----0-----3p0-0-----0---0-1-----1-----3p1-1-----1---1-4--------------------|-
E|-0-0-0-0-0-0-----0-0-0-0-0-0-1-1-1-1-1-1-----1-1-1-1-1-1-4--------------------|-


Chorus(16,16,16,8,8)
E|--------------------------------------------------------|---
B|--------------------------------------------------------|---
G|--------------------------------------------------------|---
D|------------------------------7----2---2---2-3-2--------|---
A|-0--------------------8-------3----3---4---------5-3----|---
E|-0--------------------8-------3-------------------------|---

Verse, Pre Chorus, Chorus


Bridge and solo backing x4
E|-----------------------------------------------------------------------------------------|-
B|-----------------------------------------------------------------------------------------|-
G|-----------------------------------------------------------------------------------------|-
D|-7-----------------------------5-------------------------3-------------------------------|-
A|-5-5-5-5-5-5-5-5-5-5-5-5-5-5-5-3-3-3-3-3-3-3-3-3-3-3-3-3-1-1-1-1-1-1-1-1-1-1-1-1-1-1-1-1-|-
E|-----------------------------------------------------------------------------------------|-


fourth time
E|---------------------------------|-----------------------------|-
B|---------------------------------|-----------------------------|-
G|-2-------------------------------|-2---------------------------|-
D|-2---------------3---------------|-2---------------0--3---0--3-|-
A|-0-0-0-0-0-0-0-0-3---------------|-0-0-0-0-0-0-0-0-0--3---0--3-|-
E|-----------------3-3-3-3-3-3-3-3-|-----------------0--3---0--3-|-

Chorus

Outro x4 4th Time
E|---------------------------------------------------------------|-------------|-
B|---------------------------------------------------------------|-------------|-
G|---------------------------------------------------------------|-------------|-
D|-0-------------------------------0-----------------------------|-------------|-
A|-0-----------------4---------3---0-----------------4-----------|-4---------3-|-
E|-0-0-0-0-0-0-0-0-0---3-1-3-4---4-0-0-0-0-0-0-0-0-0---3-1-3-4---|---3-1-3-4---|-
http://www.guitartabcreator.com
Guitar Tab Creator is intended to store guitar tab created through the tool. It currently does not support in-line text editing. Any text you place in here will be lost. If you need to comment on your tab, please use the "Tab Notes" section located below.