Song 2 (Rythm)

(/) Slide Up  (\) Slide Down  (h) Hammer On  (p) Pull Off  (b) Bend (r) Release (v) Vibrato


E|------------------------------|------------------------------|----------------------------------|--
B|------------------------------|------------------------------|----------------------------------|--
G|------------------------------|------------------------------|----------------------------------|--
D|------------------------------|------------------------------|--12--------------------------12--|--
A|------------------------------|------------------------------|--10--------------------------10--|--
E|------------------------------|------------------------------|----------------------------------|--



E|------------------------------|------------------------------|-----------------------------------|--
B|------------------------------|------------------------------|-----------------------------------|--
G|------------------------------|------------------------------|-----------------------------------|--
D|--8----7--------8----7--------|--3----------3----------------|--5--------------------------------|--
A|--6----6--------6----6--------|--3----------3----------------|--5--------------------------------|--
E|------------------------------|--3----------3----------------|--5--------------------------------|--


Verse
E|----------------------------------------------------------------------------------------------|-----
B|----------------------------------------------------------------------------------------------|-----
G|----------------------------------------------------------------------------------------------|-----
D|--12--12--12----------------------12----------12--12--12--13--13--13----------------------13--|-----
A|--10--10--10--10--10--10--10--10--10--10--10--10--10--10--10--10--10--10--10--10--10--10--10--|-----
E|----------------------------------------------------------------------------------------------|-----



E|----------------------------------------------------------------------------------------------|-----
B|----------------------------------------------------------------------------------------------|-----
G|----------------------------------------------------------------------------------------------|-----
D|----------13--13--13--15--15--15----------------------15----------13--13--13--13--13--13------|-----
A|--10--10--10--10--10--12--12--12--12--12--12--12--12--12--12--12--12--12--12--10--10--10--10--|-----
E|----------------------------------------------------------------------------------------------|-----



E|-------------------------------------|--
B|-------------------------------------|--
G|-------------------------------------|--
D|------------------13----------10-12--|--
A|--10--10--10--10--10--10--10--12/13--|--
E|-------------------------------------|--


Pre-Chorus
E|----------------------------------------|--
B|----------------------------------------|--
G|----------------------------------------|--
D|--10------------------------------------|--
A|--8-------------------------------------|--
E|--8-------------------------------------|--


Chorus
E|----------------------------------------------------------------|--
B|----------------------------------------------------------------|--
G|----------------------------------------------------------------|--
D|--8----------7------------5--------7-------------------8--7--5--|--
A|--5----------3------------1--------3----------0--------5--3--1--|--
E|--5----------3------------1--------3----------0--------5--3--1--|--

Verse
Pre-Chorus
Chorus

Breakdown Second Time
E|--------------------------------------------------------------|--------------|--
B|--------------------------------------------------------------|--------------|--
G|--------------------------------------------------------------|--8--8--8--8--|--
D|--------------------------------------------------------------|--------------|--
A|--8\0--0----0--3/0--0----8\0--0----0--------------3-----------|--5--5--5--5--|--
E|--8-0--0----0--3-0--0----8-0--0----0--0--3--5--6-----6--5--3--|--------------|--


Fourth Time
E|--------------------------------------------------|--
B|--------------------------------------------------|--
G|--8--8--8--8--8--8--8--8--8--8--8--8--8--8--8--8--|--
D|--------------------------------------------------|--
A|--5--5--5--5--5--5--5--5--5--5--5--5--5--5--5--5--|--
E|--------------------------------------------------|--

Intro X8
Chorus

http://www.guitartabcreator.com
Guitar Tab Creator is intended to store guitar tab created through the tool. It currently does not support in-line text editing. Any text you place in here will be lost. If you need to comment on your tab, please use the "Tab Notes" section located below.