Sacred ruler / Demo Song 1

(/) Slide Up  (\) Slide Down  (h) Hammer On  (p) Pull Off  (b) Bend (r) Release (v) Vibrato

Intro x2
E|----------------------------------------|--------------------------------------------|-
B|----------------------------------------|--------------------------------------------|-
G|----------------------------5-5-5-5-8-7-|----------------------------5-5-5-5-8-8-8-7-|-
D|------1--------1--------1---------------|------1--------1--------1-------------------|-
A|-0--0-----0--0-----0--0-----3-3-3-3-6-5-|-0--0-----0--0-----0--0-----3-3-3-3-6-6-6-5-|-
E|-0--0---3-0--0---3-0--0---3-------------|-0--0---3-0--0---3-0--0---3-----------------|-



E|-------------------------------------------------------------------------------------|---
B|-------------------------------------------------------------------------------------|---
G|-------------------------------------------------------------------------------------|---
D|-------------------------------------------------------------------------------------|---
A|-------------------------------------------------------------------------------------|---
E|-------------------------------------------------------------------------------------|---


Pre-Chorus x2
E|-----------------------------------------------------------------|-
B|-----------------------------------------------------------------|-
G|-----------------------------------------------------------------|-
D|-10-10-10-10-10-10-10-10-10-8-8-8-8-7-7-7------------------------|-
A|-8--8--8--8--8--8--8--8--8--5-5-5-5-5-5-5-0-0-0-0-0----0-0-0-0-0-|-
E|-8--8--8--8--8--8--8--8--8--5-5-5-5-5-5-5-0-0-0-0-0----0-0-0-0-0-|-


Pre-chorus 2 x1 Chorus x2
E|-------------------------------------------------|-------------------------|-
B|-------------------------------------------------|-------------------------|-
G|-10-10-10-10-10-10-10-10-10-12-12-12-12-12-12-12-|-------------------------|-
D|-8--8--8--8--8--8--8--8--8--10-10-10-10-10-10-10-|-------5-----7-----------|-
A|-8--8--8--8--8--8--8--8--8--10-10-10-10-10-10-10-|-3-----3-----5-----8-----|-
E|-8--8--8--8--8--8--8--8--8--10-10-10-10-10-10-10-|-3-----------------8-----|-

Intro, Verse, Pre-Chorus', Chorus (x2)

Breakdown x10
E|-----------------------------------------------------------------|-
B|-----------------------------------------------------------------|-
G|-----------------------------------------------5-5-5-5-8-8-8-7-7-|-
D|---------1---------------1---------------1-----------------------|-
A|-0-0-0-0---------0-0-0-0---------0-0-0-0-------3-3-3-3-6-6-6-5-5-|-
E|-0-0-0-0---3-0-3-0-0-0-0---3-0-3-0-0-0-0---3-0-------------------|-

Interlude, Pre-Chorus', Chorus x2

http://www.guitartabcreator.com
Guitar Tab Creator is intended to store guitar tab created through the tool. It currently does not support in-line text editing. Any text you place in here will be lost. If you need to comment on your tab, please use the "Tab Notes" section located below.