Fast Song

(/) Slide Up  (\) Slide Down  (h) Hammer On  (p) Pull Off  (b) Bend (r) Release (v) Vibrato


E|-------------------------------------------
B|-------------------------------------------
G|-------------------------------------------
D|-7-----7-----8-7---7-8---------------------
A|-5-----5-----6-5---5-6---------------------
E|---0-0---0-0-----0-----0-0-0-0-0-0-0-0-0-0-



E|--------------------------------------
B|--------------------------------------
G|--------------------------------------
D|-7-----7-----8-7---7-8----------------
A|-5-----5-----6-5---5-6--0--0--0--0--0-
E|---0-0---0-0-----0------0--0--0--0--0-



E|--------------------------------------------------
B|--------------------------------------------------
G|--------------------------------------------------
D|--7--------7--------8--7-----7--8-----------------
A|--5--0--0--5--0--0--6--5--0--5--6--0--0--0--0--0--
E|-----0--0-----0--0--------0--------0--0--0--0--0--



E|-----
B|-----
G|-----
D|-----
A|-----
E|-----



E|-----
B|-----
G|-----
D|-----
A|-----
E|-----



E|-------------------------------------------|--
B|-------------------------------------------|--
G|-------------------------------------------|--
D|-------------------------------------------|--
A|--0--------------------\0------------------|--
E|--0---------------------0------------------|--



E|------------------------------------------------------------
B|------------------------------------------------------------
G|------------------------------------------------------------
D|--------7-8----------7-8---5--5-5-5-5-5-5/8--8-8-8-8-7--7-7-
A|-0--0-0-5-6-0-0--0-0-5-6-0-3--3-3-3-3-3-3-6--6-6-6-6\5--5-5-
E|-0--0-0-----0-0--0-0-----0----------------------------------



E|---------------------------------------------------------------
B|---------------------------------------------------------------
G|---------------------------------------------------------------
D|----------7-8----------7-8---7--7-7-7-7-7-7--5--5-5-5-5--3-3---
A|-0-0--0-0-5-6-0-0--0-0-5-6-0-5--5-5-5-5-5-5--3--3-3-3-3--1-1---
E|-0-0--0-0-----0-0--0-0-----0-----------------------------------



E|-----------------------------------------------------------------
B|-----------------------------------------------------------------
G|---1-------------1--------------------------------1--------------
D|---1----3--5--3--1----------------2h3p2-----------1--3--5--6-7---
A|-0-0----1--3--1--0--0-0-0-0-0-0-0-------3-5-3-2-0-0--1--3--4-5---
E|-----------------------------------------------------------------



E|--------------------------------------------
B|--------------------------------------------
G|--------------------------------------------
D|--------------------------------------------
A|--------------------------------------------
E|-0-0-0-0-0-10-8-0-0-8-7-0-0-7-5-0-0-5-3-0-0-



E|-----------------------------------------------------------------------------------
B|-----------------------------------------------------------------------------------
G|-2-----------2----------------------------------------------2----------------------
D|-2-----3-5-3-2-----------------------------2h3p2------------2--3--5--6-7-------6-7-
A|-0-0-0-1-3-1-0--0-0-0--0-0-0--0-0-0--0-0-0-------3-5-3-2-0--0--1--3--4-5-0-0-0-4-5-
E|-----------------------------------------------------------------------------------



E|-------------------------------------------------------
B|-------------------------------------------------------
G|-------------------------------------------------------
D|-3--3-3-3-3-3-3-3-3-3-3-3--3--2--2-2-2-2-2-2-2-2-2-2-2-
A|-5--5-5-5-5-5-5-5-5-5-5-5--5--3--3-3-3-3-3-3-3-3-3-3-3-
E|-------------------------------------------------------



E|------------------------------------------------------
B|------------------------------------------------------
G|------------------------------------------------------
D|-2----------------------------------------------------
A|-3--5--5-5-5-5-5-5-5-5-5-5-5--5-4-----4/5---5-----5\4-
E|----8--8-8-8-8-8-8-8-8-8-8-8--8-7-7-7-----7---7-7-----



E|--------------------------------------------------------------------------------
B|--------------------------------------------------------------------------------
G|--------------------------------------------------------------------------------
D|-3---------3-------3-----3--2---------2-------2-----2---------------------------
A|---5-5-5-5---5-5-5---5-5------3-3-3-3---3-3-3---3-3---5---------5-------5-----5-
E|--------------------------------------------------------8-8-8-8---8-8-8---8-8---



E|-----------------------------------------------------------------|-
B|-----------------------------------------------------------------|-
G|-----------------------------------------------------------------|-
D|-----------------------------------------------------------------|-
A|--------4/5---5-----5\4---0--------------------------------------|-
E|-7--7-7-----7---7-7-----7-0--------------------------------------|-



E|-------------------------------------------------------------------------|-
B|-------------------------------------------------------------------------|-
G|-------------------------------------------------------7h8p7----7--------|-
D|-------------------------------------------------------------10---10-8-7-|-
A|-0-------0-----6---5-------------0-0-0-6---5-0-0-0-0-0-------------------|-
E|-0-0-0-0-0-0-0---0---0-0--0-0-0--0-0-0---0---0-0-0-0-0-------------------|-



E|-------------------|-
B|-------------------|-
G|-7h8p7----7--------|-
D|-------10---10-8-7-|-
A|-------------------|-
E|-------------------|-



E|----------------------------------------------------------------------------------|---------
B|----------------------------------------------------------------------------------|---------
G|----------------------------------------------------------------------------------|---------
D|----------------------------------------------------------------------------------|---------
A|----------------------------------------------------------------------------------|-0---0---
E|-3-3-3-3-3-3-3-3-3-3-3-3-2-2-2-2-2-2--1--1--1--0-0-0-0--0-0-0-0--0-0-0-0--0-0-0-0-|-0---0---



E|-------------------------------|-
B|-------------------------------|-
G|-------------------------------|-
D|-7-7-7-7-7-7-7-7-7-7-7-7-7-7-7-|-
A|-5-5-5-5-5-5-5-5-5-5-5-5-5-5-5-|-
E|-------------------------------|-



E|--------------------------------------------------------------------------------
B|--------------------------------------------------------------------------------
G|--------------------------------------------------------------------------------
D|-7-7-7-7-7-7-7-7-7-7-7-7-7-7-7--5-5-5-5-5-5-5-5-5-5-5-5-5-5-5-8-8-8-8-8-8-8-8---
A|-5-5-5-5-5-5-5-5-5-5-5-5-5-5-5--3-3-3-3-3-3-3-3-3-3-3-3-3-3-3-6-6-6-6-6-6-6-6---
E|--------------------------------------------------------------------------------



E|-----------------------------------------------|-
B|-----------------------------------------------|-
G|-----------------------------------------------|-
D|-5-5-5-5-5-5-5-5-7-7-7-7-7-7-7-7-7-7-7-7-7-7-7-|-
A|-3-3-3-3-3-3-3-3-5-5-5-5-5-5-5-5-5-5-5-5-5-5-5-|-
E|-----------------------------------------------|-



E|-
B|-
G|-
D|-
A|-
E|-
http://www.guitartabcreator.com
Guitar Tab Creator is intended to store guitar tab created through the tool. It currently does not support in-line text editing. Any text you place in here will be lost. If you need to comment on your tab, please use the "Tab Notes" section located below.