7 string song B E A D G B E

(/) Slide Up  (\) Slide Down  (h) Hammer On  (p) Pull Off  (b) Bend (r) Release (v) Vibrato

Intro

t: E E E E E E E E E E E E E E E undefined
E|-0-0-0-0-6-0-0-0-5-0-0-0-3-0-5-|-
B|-------------------------------|-
G|-------------------------------|-
D|-------------------------------|-
A|-------------------------------|-
E|-------------------------------|-

Verse x2

t: E E E E E E E E E E E E E E E E E E E E E E E E E E E E EE E E E E EE E E E E E E E E E E
E|-----------------------------------------------------------------------------------------|-
B|-----------------------------------------------------------------------------------------|-
G|-----------------------------------------------------------------------------------------|-
D|-9---------9-----------------9---------9-----------------10---------10-------------------|-
A|-7-7-7-7-7-7-7-7-7-7-7-7-7-7-7-7-7-7-7-7-7-7-7-7-7-7-7-7-7--7-7-7-7-7--7-7-7-7-7-7-7-7-7-|-
E|-----------------------------------------------------------------------------------------|-


t: EE E E E EE E E E E E E E E E E E E E E E E E E E E E E E E E E E E E E E E E E E E E E E undefined
E|-------------------------------------------------------------------------------------------|-
B|-------------------------------------------------------------------------------------------|-
G|-------------------------------------------------------------------------------------------|-
D|-10-------10-----------------5-------5---------------5---------5---------------------------|-
A|-7--7-7-7-7--7-7-7-7-7-7-7-7-3-3-3-3-3-3-3-3-3-3-3-3-3-3-3-3-3-3-5---------5---------------|-
E|-----------------------------------------------------------------3-3-3-3-3-3-3-3-3-3-3-3-3-|-


t: E E E E E E E E E E E E E E E E E E E E E E E E E E E E E E E E E E E E E E E E
E|---------------------------------------------------|----------------|-
B|---------------------------------------------------|----------------|-
G|---------------------------------------------------|----------------|-
D|---------------------4---------4-------------------|-4---------4----|-
A|-5---------5---------2-2-2-2-2-2-2-2-2-2-2-2-2-2-2-|-2---------2----|-
E|-3-3-3-3-3-3-3-3-3-3-------------------------------|----------------|-

Pre-Chorus x1

t: EEE E E E E E E E E E E E E E E EE E E E E E E E E E E EEE E E E E E E E E E E E E
E|------------------------------------------------------------------------|---
B|------------------------------------------------------------------------|---
G|------------------------------------------------------------------------|---
D|-9-7/9--2-2--2-2--2-2--2-2-9--7/9--2-2--2------9-7/9-2-2--2-2--2-2--2-2-|---
A|-7\5-7--2-2--2-2--2-2--2-2-7--5-7--2-2--2------7\5-7-2-2--2-2--2-2--2-2-|---
E|--------0-0--0-0--0-0--0-0---------0-0--0------------0-0--0-0--0-0--0-0-|---



E|------------------------------------------------------------------------|---
B|------------------------------------------------------------------------|---
G|------------------------------------------------------------------------|---
D|-9--7-9--------------------2--------------------------------------------|---
A|-7--5-7-3-3--3-3--3-3--5-5-2--------------------------------------------|---
E|--------1-1--1-1--1-1--3-3-0--------------------------------------------|---

Chorus x2

E|------------------------------------------------|--
B|------------------------------------------------|--
G|------------------------2-----------------------|--
D|--2-----------5------4--2------4----7-----------|--
A|--2--------5--3------2--0------2----5--9--------|--
E|--0--------3---------------------------7--------|--

Verse x1, Pre-Chorus x1, Chorus x1, My clean part with your solo! (Uen)



My solo, backing guitar (all the 9s here are 7s and the 10s are 8s look below \/)

7s 8s
\/ \/
E|----------------------------------------------------------------------------------|-
B|----------------------------------------------------------------------------------|-
G|----------------------------------------------------------------------------------|-
D|----------------------------------------------------------------------------------|-
A|------------7-------------------7---7--------------10-------------------10---10---|-
E|-5-5-5--5-5---5-5-5--5-5-5--5-5---5---5-9-9-9--9-9----9-9-9--9-9-9--9-9----9----9-|-



E|--------------------------------------------------------------------------------|-
B|--------------------------------------------------------------------------------|-
G|--------------------------------------------------------------------------------|-
D|--------------------------------------------------------------------------------|-
A|------------5-------------------5---5--------------10-------------------2-------|-
E|-3-3-3--3-3---3-3-3--3-3-3--3-3---3---3-9-9-9--9-9----9-9-9--1-1-1--1-1---1-1-1-|-



E|-------------------------------------------------|-------------------------------
B|-------------------------------------------------|-------------------------------
G|-------------------------------------------------|-------------------------------
D|-------------------------------------------------|-------------------------------
A|-------7p5h7-------7p5h7-------7p5h7-------7p5h7-|-------10p9h10-------10p9h10---
E|-5-5-5-------5-5-5-------5-5-5-------5-5-5-------|-9-9-9---------9-9-9-----------



E|-----------------------------|-------------------------------------------------|-
B|-----------------------------|-------------------------------------------------|-
G|-----------------------------|-------------------------------------------------|-
D|-----------------------------|-------------------------------------------------|-
A|-------10p9h10-------10p9h10-|-------5p3h5-------5p3h5-------5p3h5-------5p3h5-|-
E|-9-9-9---------9-9-9---------|-3-3-3-------3-3-3-------3-3-3-------3-3-3-------|-



E|----------------------------------|----------------------------------|--
B|----------------------------------|----------------------------------|--
G|----------------------------------|----------------------------------|--
D|----------------------------------|----------------------------------|--
A|-----------8p7h8-----------8p7h8--|-----------2p1h1-----------2p1h2--|--
E|--7--7--7---------7--7--7---------|--1--1--1---------1--1--1---------|--
http://www.guitartabcreator.com
Guitar Tab Creator is intended to store guitar tab created through the tool. It currently does not support in-line text editing. Any text you place in here will be lost. If you need to comment on your tab, please use the "Tab Notes" section located below.