triadi alla gilbert

(/) Slide Up  (\) Slide Down  (h) Hammer On  (p) Pull Off  (b) Bend (r) Release (v) Vibrato


E|---------------7-10---------------6-10----------------8-11-------------------12-16-
B|-------------8------------------8------------------10---------------------13-------
G|---------4-7----------------3-7----------------5-8-------------------9-13----------
D|-------5------------------5------------------7--------------------10---------------
A|---2-5----------------1-5----------------3-6-----------------7-11------------------
E|-3------------------3------------------5-------------------8-----------------------



E|------------------10-
B|-------------8-12----
G|-----------7---------
D|-------5-9-----------
A|-----5---------------
E|-3-7-----------------
http://www.guitartabcreator.com
Guitar Tab Creator is intended to store guitar tab created through the tool. It currently does not support in-line text editing. Any text you place in here will be lost. If you need to comment on your tab, please use the "Tab Notes" section located below.