string skip tipo KL

(/) Slide Up  (\) Slide Down  (h) Hammer On  (p) Pull Off  (b) Bend (r) Release (v) Vibrato

E|--14--12--10------------------------------10--12--------------------------------------------------
B|--------------------------------------------------14--12--10------------------------------10--12--
G|--------------14--12--11------11--12--14----------------------------------------------------------
D|--------------------------12----------------------------------14--12--11------11--12--14----------
A|--------------------------------------------------------------------------12----------------------
E|--------------------------------------------------------------------------------------------------



E|-------------------------------------------------------------------------14-12-10-------------------
B|-------------------------------------14-12-10----------------------10-12----------------------------
G|-14-12-10----------------------10-12----------------------------------------------14-12-11----11-12-
D|----------------------------------------------14-12-11----11-12-14-------------------------12-------
A|----------15-13-12----12-13-15-------------------------12-------------------------------------------
E|-------------------13-------------------------------------------------------------------------------



E|------10--12--
B|--------------
G|--14----------
D|--------------
A|--------------
E|--------------
http://www.guitartabcreator.com
Guitar Tab Creator is intended to store guitar tab created through the tool. It currently does not support in-line text editing. Any text you place in here will be lost. If you need to comment on your tab, please use the "Tab Notes" section located below.