scale alla malmsteen

(/) Slide Up  (\) Slide Down  (h) Hammer On  (p) Pull Off  (b) Bend (r) Release (v) Vibrato


E|------------------------------------------10-12-13------------------------------------------10-12---
B|-------------------------------9-10-12-13----------------------------------------8-10-12-13---------
G|------------------------7-9-10--------------------------------------------7-9-11--------------------
D|---------------6-7-9-10------------------------------------------5-7-9-10---------------------------
A|---------5-7-8---------------------------------------------5-7-9------------------------------------
E|-4-5-7-8-------------------------------------------3-5-7-8------------------------------------------



E|-------------------------------------------------------------------------
B|----------------------------------------------------------------------16-
G|----------------------------------------------13----------16-15-16-18----
D|----------------------11----------14-13-14-16----16-18-20----------------
A|----------12-11-12-14----14-16-18----------------------------------------
E|-12-14-16----------------------------------------------------------------
http://www.guitartabcreator.com
Guitar Tab Creator is intended to store guitar tab created through the tool. It currently does not support in-line text editing. Any text you place in here will be lost. If you need to comment on your tab, please use the "Tab Notes" section located below.