scale 5 suoni alla malmsteen

(/) Slide Up  (\) Slide Down  (h) Hammer On  (p) Pull Off  (b) Bend (r) Release (v) Vibrato
E|------------------------------------------------7-8-7-8-10-8-7---------------------------------
B|-------------------------------------6-9-6-9-10----------------10-9-10-9-6---------------------
G|---------------------------5-7-5-7-9---------------------------------------9-7-9-7-5-----------
D|-----------------6-7-6-7-9-----------------------------------------------------------9-7-9-7-6-
A|-------5-7-5-7-8-------------------------------------------------------------------------------
E|-5-7-8-----------------------------------------------------------------------------------------



E|-------------------------------------------------------------------------------------------------
B|-------------------------------------------------------------------------------------------6-8-6-
G|---------------------------------------------------------------5-7-5-----------5-7-9-5-7-9-------
D|-----------------------------------5-7-5-----------5-7-9-5-7-9-------9-7-5-7-9-------------------
A|-------5-7-5-----------5-7-8-5-7-8-------8-7-5-7-8-----------------------------------------------
E|-5-7-8-------8-7-5-7-8---------------------------------------------------------------------------
http://www.guitartabcreator.com
Guitar Tab Creator is intended to store guitar tab created through the tool. It currently does not support in-line text editing. Any text you place in here will be lost. If you need to comment on your tab, please use the "Tab Notes" section located below.