PG mie bellissimi

(/) Slide Up  (\) Slide Down  (h) Hammer On  (p) Pull Off  (b) Bend (r) Release (v) Vibrato


E|-------------------------------------------------
B|-------------------------------------------------
G|-------5-----------------------------------5-----
D|-5-7-8---8-7-5-----------------------5-7-8---8-7-
A|---------------8-7-5-----------5-7-8-------------
E|---------------------8-7-5-7-8-------------------



E|-------------------------------------------------
B|-------------------------------------------------
G|-------5-----------------------------------------
D|-5-7-9---9-7-5-----------------------5-7-9-------
A|---------------9-7-5-----------5-7-9-------5-7-9-
E|---------------------9-7-5-7-9-------------------
http://www.guitartabcreator.com
Guitar Tab Creator is intended to store guitar tab created through the tool. It currently does not support in-line text editing. Any text you place in here will be lost. If you need to comment on your tab, please use the "Tab Notes" section located below.