KL 3 corde

(/) Slide Up  (\) Slide Down  (h) Hammer On  (p) Pull Off  (b) Bend (r) Release (v) Vibrato


E|-------------------------------------------------------------------5-7-8-
B|-------------------------------------------------5-7-8-------5-7-8-------
G|-------------------------------4-5-7-------4-5-7-------4-5-7-------------
D|-------------4-5-7-------4-5-7-------4-5-7-------------------------------
A|-------3-5-7-------3-5-7-------------------------------------------------
E|-3-5-7-------------------------------------------------------------------



E|-8-7-5-------------------------------------------------------------------
B|-------8-7-5-------8-7-5-------------------------------------------------
G|-------------7-5-4-------7-5-4-------7-5-4-------------------------------
D|-------------------------------7-5-4-------7-5-4-------7-5-4-------------
A|-------------------------------------------------7-5-3-------7-5-3-------
E|-------------------------------------------------------------------7-5-3-
http://www.guitartabcreator.com
Guitar Tab Creator is intended to store guitar tab created through the tool. It currently does not support in-line text editing. Any text you place in here will be lost. If you need to comment on your tab, please use the "Tab Notes" section located below.