esercizi vari 04042013

(/) Slide Up  (\) Slide Down  (h) Hammer On  (p) Pull Off  (b) Bend (r) Release (v) Vibrato


E|---------------------------------
B|---------------------------------
G|-------------------------5-4-7-4-
D|-----------------5-4-7-4---------
A|---------5-3-7-3-----------------
E|-5-3-7-3-------------------------



E|-----------------------------------------5-
B|---------------------------------5-7-5-8---
G|-------------------------4-5-4-7-----------
D|-----------------4-5-4-7-------------------
A|---------3-5-3-7---------------------------
E|-3-5-3-7-----------------------------------



E|---------------------------------------------------------------------------------
B|---------------------------------------------------------------------------------
G|---------------------------------------------------------------------------------
D|---------------------------------------------------------------------2-----------
A|---------------1-----------1-3-1-----------1-3-5-3-1-----------1-3-5---5-3-1-----
E|-1-3-5-3-1-3-5---5-3-1-3-5-------5-3-1-3-5-----------5-3-1-3-5---------------5-3-



E|-----------------------------------------------------------------
B|-----------------------------------------------------------------
G|-----------------------------------------------------------------
D|---------------------------------------------------------------2-
A|---------------1-----1-------1-3---1-3-1---1-3-5-1-3-5-3-1-3-5---
E|-1-3-5-3-1-3-5---3-5---5-3-5-----5-------5-----------------------



E|-15-12-------------------------------------
B|-------15-12-15-12-------------------------
G|-------------------14-12-14-12-------------
D|-------------------------------14-12-14-12-
A|-------------------------------------------
E|-------------------------------------------



E|-12----------------------------------------
B|----15-12-15-12----------------------------
G|----------------14-12-14-12----------------
D|----------------------------14-12-14-12----
A|----------------------------------------14-
E|-------------------------------------------



E|-12-15-12----------------------------
B|----------15-12-15-12----------------
G|----------------------14-12-14-12----
D|----------------------------------14-
A|-------------------------------------
E|-------------------------------------



E|-15-12----12---------------------------
B|-------15----15-12----12-15-12----12---
G|-------------------14----------14------
D|---------------------------------------
A|---------------------------------------
E|---------------------------------------



E|----12----------------------
B|-15----15-12----12----------
G|-------------14----14-12----
D|-------------------------14-
A|----------------------------
E|----------------------------



E|-15-12-------15-12-------15-12-------
B|-------15-12-------15-12-------15-12-
G|-------------------------------------
D|-------------------------------------
A|-------------------------------------
E|-------------------------------------



E|-------------------------------------------
B|-------------------------------------------
G|-------------------------------------4-5-7-
D|-----------------------------4-5-7-4-------
A|-------3-5-7-3---------3-5-7---------------
E|-3-5-7---------7-5-3-7---------------------



E|-12-15-12----------------------------------------------------
B|----------15-12----------------------------------------------
G|----------------14-12----------------------------------12-14-
D|----------------------14-12----------------------12-14-------
A|----------------------------14-12----------12-14-------------
E|----------------------------------15-12-15-------------------



E|-15-12-------12-10-------10-7------7-5-----
B|-------15-12-------12-10------10-8-----8-5-
G|-------------------------------------------
D|-------------------------------------------
A|-------------------------------------------
E|-------------------------------------------



E|---------------------------------------------------------
B|---------------------------------------------------------
G|---------------------------------------------------------
D|---------------------------------------------------------
A|-------3-----3-5---3-5-7---------9-------9-10----9-10-12-
E|-3-5-7---5-7-----7-------8-10-12---10-12------12---------
http://www.guitartabcreator.com
Guitar Tab Creator is intended to store guitar tab created through the tool. It currently does not support in-line text editing. Any text you place in here will be lost. If you need to comment on your tab, please use the "Tab Notes" section located below.