da intense rock spunti rivisti

(/) Slide Up  (\) Slide Down  (h) Hammer On  (p) Pull Off  (b) Bend (r) Release (v) Vibrato


E|-------------------------------------------------------------------------------------
B|-------------------------------------------------------------------------------------
G|-------------------------------------9-6-7-9-7-6-------------------------------------
D|-------------------------9-6-7-9-7-6-------------------------------------6-9-7-6-7-9-
A|-------------9-5-7-9-7-5-------------------------------------5-9-7-5-7-9-------------
E|-9-5-7-9-7-5-------------------------------------5-9-7-5-7-9-------------------------



E|-------------------------------------------------
B|-------------------------------------------------
G|---------9-------------------------------9-------
D|-9-10-12---12-10-9---------------9-10-12---12-10-
A|-------------------12-10-8-10-12-----------------
E|-------------------------------------------------



E|----------------------------------------------------------------
B|----------------------------------------------------------------
G|---------9---------------9----9-------------------------------9-
D|-9-10-12---12-10-9-10-12---12---12-10-9---------------9-10-12---
A|----------------------------------------12-10-8-10-12-----------
E|----------------------------------------------------------------



E|-------------------------------------------------------------------
B|-------------------------------------------------------------------
G|-------------------------------------------------------------------
D|---------------------------------9-10-12-10-9---------------9------
A|---------8---------------8-10-12--------------12-10-8-10-12---12---
E|-8-10-12---12-10-8-10-12-------------------------------------------



E|-----------------------------------------
B|-----------------------------------------
G|-----------------------------------------
D|---------------------------------9-------
A|---------8---------------8-10-12---12-10-
E|-8-10-12---12-10-8-10-12-----------------



E|-13-12-10----10-12-13-12-10----------------------------
B|----------13----------------13-12-10----------------10-
G|-------------------------------------14-12-10-12-14----
D|-------------------------------------------------------
A|-------------------------------------------------------
E|-------------------------------------------------------



E|--------------------------------------12-14-15---------------------------------------------
B|-----------------------------10-12-13---------------------------------------------13-15-17-
G|---------------------9-11-12---------------------------------------------12-14-16----------
D|--------------7-9-10--------------------------------------------10-12-14-------------------
A|-------7-9-10------------------------------------------10-12-14----------------------------
E|-5-7-8-----------------------------------------8-10-12-------------------------------------



E|-----
B|-----
G|-----
D|-----
A|-----
E|-----
http://www.guitartabcreator.com
Guitar Tab Creator is intended to store guitar tab created through the tool. It currently does not support in-line text editing. Any text you place in here will be lost. If you need to comment on your tab, please use the "Tab Notes" section located below.