i am just a ghost

(/) Slide Up  (\) Slide Down  (h) Hammer On  (p) Pull Off  (b) Bend (r) Release (v) Vibrato


E|---------------------------------------------------------------------------
B|---------------------------------------------------------------------------
G|-----------2-1---------------------------4-2---2-4/6-6-6-6-6\4-2-----------
D|-------2-------4-2---------2-2h4-2-0-2h4-----4-------------------2-2h4-2---
A|-0-2h4-------------4-2-2h4-----------------------------------------------0-
E|---------0-----------------------------------------------------------------



E|-------------------------------------------------------------
B|-------------------------------------2-----------------------
G|-2-2-----------------------------2-4---2-4-6-6-6-6-6-4-------
D|-----2-4---------------2---2-2h4-----------------------6-4/7-
A|-------------2---4-4-4---4-----------------------------------
E|---------2h5---5---------------------------------------------
http://www.guitartabcreator.com
Guitar Tab Creator is intended to store guitar tab created through the tool. It currently does not support in-line text editing. Any text you place in here will be lost. If you need to comment on your tab, please use the "Tab Notes" section located below.