chillipeppers tribute

(/) Slide Up  (\) Slide Down  (h) Hammer On  (p) Pull Off  (b) Bend (r) Release (v) Vibrato


E|-----------------------------------
B|-----------2h3-------------2--0h2--
G|--------4---------------2----------
D|-----4---------------2-------------
A|--2---------------0----------------
E|-----------------------------------



E|---------------------------------0h2b0-----------
B|-----------2h3-------------2--0---------2--------
G|--------4---------------2------------------2--4--
D|-----4---------------2---------------------------
A|--2---------------0------------------------------
E|-------------------------------------------------
http://www.guitartabcreator.com
Guitar Tab Creator is intended to store guitar tab created through the tool. It currently does not support in-line text editing. Any text you place in here will be lost. If you need to comment on your tab, please use the "Tab Notes" section located below.