Title

(/) Slide Up  (\) Slide Down  (h) Hammer On  (p) Pull Off  (b) Bend (r) Release (v) Vibrato

Guitar I

E|--------------------------------------------------------------
B|--------------------------------------------------------------
G|--------------------------------------------------------------
D|--------7-----7-----7-----7-----4--4--5--4--5--4--5--4--5--4--
A|--5--5-----5-----5-----5-----5--------------------------------
E|--------------------------------------------------------------

Guitar II

E|----------------------------------------------------------------------------------
B|----------------------------------------------------------------------------------
G|----------14------14------14------14------11--11--12--11--12--11--12--11--12--11--
D|--12--12------12------12------12------12------------------------------------------
A|----------------------------------------------------------------------------------
E|----------------------------------------------------------------------------------
http://www.guitartabcreator.com
Guitar Tab Creator is intended to store guitar tab created through the tool. It currently does not support in-line text editing. Any text you place in here will be lost. If you need to comment on your tab, please use the "Tab Notes" section located below.