song two

(/) Slide Up  (\) Slide Down  (h) Hammer On  (p) Pull Off  (b) Bend (r) Release (v) Vibrato
E|------------------------------------------------------------------------------------------------------
B|------------------------------------------------------------------------------------------------------
G|------------------------------------------------------------------------------------------------------
D|------------------------------------------------------------------------------------------------------
A|----------------------------------------------------------------------------------------------7-------
E|-0-0-0-12-0-0-0-13-0-0-0-12-0-0-0-13-0-9-0-9/12-0-0-0-12-0-0-0-13-0-0-0-12-0-0-0-13-0-0-0-9-8---9-7-6-



E|----------------------------------------------------------------------------------------------------------------------------------------------------
B|----------------------------------------------------------------------------------------------------------------------------------------------------
G|----------------------------------------------------------------------------------------------------------------------------------------------------
D|----------------------------------------------------------------------------------------------------------------------------------------7-----------
A|----------------------------------------------------------------------------------------------------------------------------------9--8-----9--7--6--
E|--0--0--0--12--0--0--0--13--0--0--0--12--0--0--0--13--0--9--0--9/12--0--0--0--12--0--0--0--13--0--0--0--12--0--0--0--13--0--0--0--------------------
http://www.guitartabcreator.com
Guitar Tab Creator is intended to store guitar tab created through the tool. It currently does not support in-line text editing. Any text you place in here will be lost. If you need to comment on your tab, please use the "Tab Notes" section located below.