song 3 (7string)

(/) Slide Up  (\) Slide Down  (h) Hammer On  (p) Pull Off  (b) Bend (r) Release (v) Vibrato

E|----------------------------------------------------------------
B|----------------------------------------------------------------
G|-------------------------------------2-2-----2-2----------------
D|-----5-5-----5-5-----4-4-----4-4---------------------9-8-6-10-6-
A|----------------------------------------------------------------
E|-0-0-----0-0-----0-0-----0-0-----0-0-----0-0-----0-0------------



E|----------------------------------------------------------------
B|-----------------------------------------------------9-8-6-10-6-
G|-------------------------------------2-2-----2-2----------------
D|-----5-5-----5-5-----4-4-----4-4--------------------------------
A|----------------------------------------------------------------
E|-0-0-----0-0-----0-0-----0-0-----0-0-----0-0-----0-0------------



E|-----------------------------------------------------------------------------------------
B|-----------------------------------------------------------------------------------------
G|-----------------------------------------------------------------------------------------
D|-----------------------------------------------------------------------------------5-----
A|--------7--------7--8--------7--------7--8--------7--------7--8--------5--------5-----5--
E|--5--5-----5--5--------5--5-----5--5--------5--5-----5--5--------5--5-----5--5-----------
http://www.guitartabcreator.com
Guitar Tab Creator is intended to store guitar tab created through the tool. It currently does not support in-line text editing. Any text you place in here will be lost. If you need to comment on your tab, please use the "Tab Notes" section located below.